  0
SECTION
  2
HEADER
  9
$ACADVER
  1
AC1015
  9
$ACADMAINTVER
 70
     6
  9
$DWGCODEPAGE
  3
ANSI_1254
  9
$INSBASE
 10
0.0
 20
0.0
 30
0.0
  9
$EXTMIN
 10
0.0
 20
0.0
 30
0.0
  9
$EXTMAX
 10
279.4
 20
215.9
 30
0.0
  9
$LIMMIN
 10
0.0
 20
0.0
  9
$LIMMAX
 10
279.4
 20
215.9
  9
$ORTHOMODE
 70
     0
  9
$REGENMODE
 70
     1
  9
$FILLMODE
 70
     1
  9
$QTEXTMODE
 70
     0
  9
$MIRRTEXT
 70
     1
  9
$LTSCALE
 40
1.0
  9
$ATTMODE
 70
     1
  9
$TEXTSIZE
 40
3.5
  9
$TRACEWID
 40
1.0
  9
$TEXTSTYLE
  7
Standard
  9
$CLAYER
  8
0
  9
$CELTYPE
  6
ByLayer
  9
$CECOLOR
 62
   256
  9
$CELTSCALE
 40
1.0
  9
$DISPSILH
 70
     0
  9
$DIMSCALE
 40
1.0
  9
$DIMASZ
 40
3.5
  9
$DIMEXO
 40
1.0
  9
$DIMDLI
 40
3.75
  9
$DIMRND
 40
0.0
  9
$DIMDLE
 40
0.0
  9
$DIMEXE
 40
1.0
  9
$DIMTP
 40
0.0
  9
$DIMTM
 40
0.0
  9
$DIMTXT
 40
3.5
  9
$DIMCEN
 40
2.5
  9
$DIMTSZ
 40
0.0
  9
$DIMTOL
 70
     0
  9
$DIMLIM
 70
     0
  9
$DIMTIH
 70
     1
  9
$DIMTOH
 70
     1
  9
$DIMSE1
 70
     0
  9
$DIMSE2
 70
     0
  9
$DIMTAD
 70
     1
  9
$DIMZIN
 70
     0
  9
$DIMBLK
  1

  9
$DIMASO
 70
     1
  9
$DIMSHO
 70
     1
  9
$DIMPOST
  1

  9
$DIMAPOST
  1

  9
$DIMALT
 70
     0
  9
$DIMALTD
 70
     3
  9
$DIMALTF
 40
0.0393700787
  9
$DIMLFAC
 40
1.0
  9
$DIMTOFL
 70
     1
  9
$DIMTVP
 40
0.0
  9
$DIMTIX
 70
     0
  9
$DIMSOXD
 70
     0
  9
$DIMSAH
 70
     0
  9
$DIMBLK1
  1

  9
$DIMBLK2
  1

  9
$DIMSTYLE
  2
ISO-25
  9
$DIMCLRD
 70
     0
  9
$DIMCLRE
 70
     0
  9
$DIMCLRT
 70
     0
  9
$DIMTFAC
 40
1.0
  9
$DIMGAP
 40
1.524
  9
$DIMJUST
 70
     0
  9
$DIMSD1
 70
     0
  9
$DIMSD2
 70
     0
  9
$DIMTOLJ
 70
     0
  9
$DIMTZIN
 70
     0
  9
$DIMALTZ
 70
     0
  9
$DIMALTTZ
 70
     0
  9
$DIMUPT
 70
     0
  9
$DIMDEC
 70
     2
  9
$DIMTDEC
 70
     2
  9
$DIMALTU
 70
     2
  9
$DIMALTTD
 70
     3
  9
$DIMTXSTY
  7
Standard
  9
$DIMAUNIT
 70
     0
  9
$DIMADEC
 70
     2
  9
$DIMALTRND
 40
0.0
  9
$DIMAZIN
 70
     0
  9
$DIMDSEP
 70
    44
  9
$DIMATFIT
 70
     3
  9
$DIMFRAC
 70
     0
  9
$DIMLDRBLK
  1

  9
$DIMLUNIT
 70
     2
  9
$DIMLWD
 70
    -2
  9
$DIMLWE
 70
    -2
  9
$DIMTMOVE
 70
     0
  9
$LUNITS
 70
     2
  9
$LUPREC
 70
     2
  9
$SKETCHINC
 40
1.0
  9
$FILLETRAD
 40
10.0
  9
$AUNITS
 70
     0
  9
$AUPREC
 70
     2
  9
$MENU
  1
.
  9
$ELEVATION
 40
0.0
  9
$PELEVATION
 40
0.0
  9
$THICKNESS
 40
0.0
  9
$LIMCHECK
 70
     0
  9
$CHAMFERA
 40
0.0
  9
$CHAMFERB
 40
0.0
  9
$CHAMFERC
 40
0.0
  9
$CHAMFERD
 40
0.0
  9
$SKPOLY
 70
     0
  9
$TDCREATE
 40
2459935.709722349
  9
$TDUCREATE
 40
2459935.584722349
  9
$TDUPDATE
 40
2459935.709722592
  9
$TDUUPDATE
 40
2459935.584722592
  9
$TDINDWG
 40
0.0000000116
  9
$TDUSRTIMER
 40
0.0000000116
  9
$USRTIMER
 70
     1
  9
$ANGBASE
 50
0.0
  9
$ANGDIR
 70
     0
  9
$PDMODE
 70
     0
  9
$PDSIZE
 40
-1.0
  9
$PLINEWID
 40
0.0
  9
$SPLFRAME
 70
     0
  9
$SPLINETYPE
 70
     6
  9
$SPLINESEGS
 70
     8
  9
$HANDSEED
  5
E2
  9
$SURFTAB1
 70
     6
  9
$SURFTAB2
 70
     6
  9
$SURFTYPE
 70
     6
  9
$SURFU
 70
     6
  9
$SURFV
 70
     6
  9
$UCSBASE
  2

  9
$UCSNAME
  2

  9
$UCSORG
 10
0.0
 20
0.0
 30
0.0
  9
$UCSXDIR
 10
1.0
 20
0.0
 30
0.0
  9
$UCSYDIR
 10
0.0
 20
1.0
 30
0.0
  9
$UCSORTHOREF
  2

  9
$UCSORTHOVIEW
 70
     0
  9
$UCSORGTOP
 10
0.0
 20
0.0
 30
0.0
  9
$UCSORGBOTTOM
 10
0.0
 20
0.0
 30
0.0
  9
$UCSORGLEFT
 10
0.0
 20
0.0
 30
0.0
  9
$UCSORGRIGHT
 10
0.0
 20
0.0
 30
0.0
  9
$UCSORGFRONT
 10
0.0
 20
0.0
 30
0.0
  9
$UCSORGBACK
 10
0.0
 20
0.0
 30
0.0
  9
$PUCSBASE
  2

  9
$PUCSNAME
  2

  9
$PUCSORG
 10
0.0
 20
0.0
 30
0.0
  9
$PUCSXDIR
 10
1.0
 20
0.0
 30
0.0
  9
$PUCSYDIR
 10
0.0
 20
1.0
 30
0.0
  9
$PUCSORTHOREF
  2

  9
$PUCSORTHOVIEW
 70
     0
  9
$PUCSORGTOP
 10
0.0
 20
0.0
 30
0.0
  9
$PUCSORGBOTTOM
 10
0.0
 20
0.0
 30
0.0
  9
$PUCSORGLEFT
 10
0.0
 20
0.0
 30
0.0
  9
$PUCSORGRIGHT
 10
0.0
 20
0.0
 30
0.0
  9
$PUCSORGFRONT
 10
0.0
 20
0.0
 30
0.0
  9
$PUCSORGBACK
 10
0.0
 20
0.0
 30
0.0
  9
$USERI1
 70
     0
  9
$USERI2
 70
     0
  9
$USERI3
 70
     0
  9
$USERI4
 70
     0
  9
$USERI5
 70
     0
  9
$USERR1
 40
0.0
  9
$USERR2
 40
0.0
  9
$USERR3
 40
0.0
  9
$USERR4
 40
0.0
  9
$USERR5
 40
0.0
  9
$WORLDVIEW
 70
     1
  9
$SHADEDGE
 70
     3
  9
$SHADEDIF
 70
    70
  9
$TILEMODE
 70
     1
  9
$MAXACTVP
 70
    64
  9
$PINSBASE
 10
0.0
 20
0.0
 30
0.0
  9
$PLIMCHECK
 70
     0
  9
$PEXTMIN
 10
1.0000000000E+20
 20
1.0000000000E+20
 30
1.0000000000E+20
  9
$PEXTMAX
 10
-1.0000000000E+20
 20
-1.0000000000E+20
 30
-1.0000000000E+20
  9
$PLIMMIN
 10
0.0
 20
0.0
  9
$PLIMMAX
 10
420.0
 20
297.0
  9
$UNITMODE
 70
     0
  9
$VISRETAIN
 70
     1
  9
$PLINEGEN
 70
     0
  9
$PSLTSCALE
 70
     1
  9
$TREEDEPTH
 70
  3020
  9
$CMLSTYLE
  2
Standard
  9
$CMLJUST
 70
     0
  9
$CMLSCALE
 40
20.0
  9
$PROXYGRAPHICS
 70
     1
  9
$MEASUREMENT
 70
     1
  9
$CELWEIGHT
370
    -1
  9
$ENDCAPS
280
     0
  9
$JOINSTYLE
280
     0
  9
$LWDISPLAY
290
     1
  9
$INSUNITS
 70
     4
  9
$HYPERLINKBASE
  1

  9
$STYLESHEET
  1

  9
$XEDIT
290
     1
  9
$CEPSNTYPE
380
     0
  9
$PSTYLEMODE
290
     1
  9
$FINGERPRINTGUID
  2
{6aa552c9-73ed-41a0-b8b9-e3252ecef2fb}
  9
$VERSIONGUID
  2
{FAEB1C32-E019-11D5-929B-00C0DF256EC4}
  9
$EXTNAMES
290
     1
  9
$PSVPSCALE
 40
0.0
  9
$OLESTARTUP
290
     0
  0
ENDSEC
  0
SECTION
  2
CLASSES
  0
CLASS
  1
ACDBDICTIONARYWDFLT
  2
AcDbDictionaryWithDefault
  3
ObjectDBX Classes
 90
        0
280
     0
281
     0
  0
CLASS
  1
VISUALSTYLE
  2
AcDbVisualStyle
  3
ObjectDBX Classes
 90
     4095
280
     0
281
     0
  0
CLASS
  1
MATERIAL
  2
AcDbMaterial
  3
ObjectDBX Classes
 90
     1153
280
     0
281
     0
  0
CLASS
  1
SCALE
  2
AcDbScale
  3
ObjectDBX Classes
 90
     1153
280
     0
281
     0
  0
CLASS
  1
TABLESTYLE
  2
AcDbTableStyle
  3
ObjectDBX Classes
 90
     4095
280
     0
281
     0
  0
CLASS
  1
MLEADERSTYLE
  2
AcDbMLeaderStyle
  3
ACDB_MLEADERSTYLE_CLASS
 90
     4095
280
     0
281
     0
  0
CLASS
  1
SUN
  2
AcDbSun
  3
SCENEOE
 90
     1153
280
     0
281
     0
  0
CLASS
  1
ACDBPLACEHOLDER
  2
AcDbPlaceHolder
  3
ObjectDBX Classes
 90
        0
280
     0
281
     0
  0
CLASS
  1
LAYOUT
  2
AcDbLayout
  3
ObjectDBX Classes
 90
        0
280
     0
281
     0
  0
ENDSEC
  0
SECTION
  2
TABLES
  0
TABLE
  2
VPORT
  5
8
330
0
100
AcDbSymbolTable
 70
     1
  0
VPORT
  5
29
330
8
100
AcDbSymbolTableRecord
100
AcDbViewportTableRecord
  2
*Active
 70
     0
 10
0.0
 20
0.0
 11
1.0
 21
1.0
 12
139.7
 22
107.95
 13
0.0
 23
0.0
 14
10.0
 24
10.0
 15
10.0
 25
10.0
 16
0.0
 26
0.0
 36
1.0
 17
0.0
 27
0.0
 37
0.0
 40
215.9
 41
1.2941176471
 42
50.0
 43
0.0
 44
0.0
 50
0.0
 51
0.0
 71
     0
 72
  2000
 73
     1
 74
     3
 75
     0
 76
     0
 77
     0
 78
     0
281
     0
 65
     1
110
0.0
120
0.0
130
0.0
111
1.0
121
0.0
131
0.0
112
0.0
122
1.0
132
0.0
 79
     0
146
0.0
  0
ENDTAB
  0
TABLE
  2
LTYPE
  5
5
330
0
100
AcDbSymbolTable
 70
     6
  0
LTYPE
  5
14
330
5
100
AcDbSymbolTableRecord
100
AcDbLinetypeTableRecord
  2
ByBlock
 70
     0
  3

 72
    65
 73
     0
 40
0.0
  0
LTYPE
  5
15
330
5
100
AcDbSymbolTableRecord
100
AcDbLinetypeTableRecord
  2
ByLayer
 70
     0
  3

 72
    65
 73
     0
 40
0.0
  0
LTYPE
  5
16
330
5
100
AcDbSymbolTableRecord
100
AcDbLinetypeTableRecord
  2
Continuous
 70
     0
  3
Solid line
 72
    65
 73
     0
 40
0.0
  0
LTYPE
  5
6E
330
5
100
AcDbSymbolTableRecord
100
AcDbLinetypeTableRecord
  2
HIDDEN
 70
     0
  3
Hidden __ __ __ __ __ __ __ __ __ __ __ __ __ __
 72
    65
 73
     2
 40
1.905
 49
1.27
 74
     0
 49
-0.635
 74
     0
  0
LTYPE
  5
6F
330
5
100
AcDbSymbolTableRecord
100
AcDbLinetypeTableRecord
  2
PHANTOM
 70
     0
  3
Phantom ______  __  __  ______  __  __  ______
 72
    65
 73
     6
 40
12.7
 49
6.35
 74
     0
 49
-1.27
 74
     0
 49
1.27
 74
     0
 49
-1.27
 74
     0
 49
1.27
 74
     0
 49
-1.27
 74
     0
  0
LTYPE
  5
70
330
5
100
AcDbSymbolTableRecord
100
AcDbLinetypeTableRecord
  2
CENTER
 70
     0
  3
Center ____ _ ____ _ ____ _ ____ _ ____ _ ____
 72
    65
 73
     4
 40
10.16
 49
6.35
 74
     0
 49
-1.27
 74
     0
 49
1.27
 74
     0
 49
-1.27
 74
     0
  0
LTYPE
  5
71
330
5
100
AcDbSymbolTableRecord
100
AcDbLinetypeTableRecord
  2
CENTERX2
 70
     0
  3
Center (2x) ________  __  ________  __  _____
 72
    65
 73
     4
 40
20.32
 49
12.7
 74
     0
 49
-2.54
 74
     0
 49
2.54
 74
     0
 49
-2.54
 74
     0
  0
LTYPE
  5
72
330
5
100
AcDbSymbolTableRecord
100
AcDbLinetypeTableRecord
  2
DOT2
 70
     0
  3
Dot (.5x) ........................................
 72
    65
 73
     2
 40
0.635
 49
0.0
 74
     0
 49
-0.635
 74
     0
  0
ENDTAB
  0
TABLE
  2
LAYER
  5
2
330
0
100
AcDbSymbolTable
 70
    17
  0
LAYER
  5
10
330
2
100
AcDbSymbolTableRecord
100
AcDbLayerTableRecord
  2
0
 70
     0
 62
     7
  6
Continuous
370
    -3
390
F
  0
LAYER
  5
73
330
2
100
AcDbSymbolTableRecord
100
AcDbLayerTableRecord
  2
FORMAT
 70
     0
 62
     7
  6
Continuous
370
    -3
390
F
  0
LAYER
  5
74
330
2
100
AcDbSymbolTableRecord
100
AcDbLayerTableRecord
  2
YARDIMCI_GEOMETRI
 70
     0
 62
    -6
  6
Continuous
290
     0
370
    -3
390
F
  0
LAYER
  5
75
330
2
100
AcDbSymbolTableRecord
100
AcDbLayerTableRecord
  2
SAYFA_CERCEVESI
 70
     0
 62
     7
  6
Continuous
370
    25
390
F
  0
LAYER
  5
76
330
2
100
AcDbSymbolTableRecord
100
AcDbLayerTableRecord
  2
ANTET
 70
     0
 62
     7
  6
Continuous
370
    -3
390
F
  0
LAYER
  5
77
330
2
100
AcDbSymbolTableRecord
100
AcDbLayerTableRecord
  2
OLCU
 70
     0
 62
   150
  6
Continuous
370
    -3
390
F
  0
LAYER
  5
78
330
2
100
AcDbSymbolTableRecord
100
AcDbLayerTableRecord
  2
METIN
 70
     0
 62
    96
  6
Continuous
370
    -3
390
F
  0
LAYER
  5
79
330
2
100
AcDbSymbolTableRecord
100
AcDbLayerTableRecord
  2
BALON
 70
     0
 62
     5
  6
Continuous
370
    -3
390
F
  0
LAYER
  5
7A
330
2
100
AcDbSymbolTableRecord
100
AcDbLayerTableRecord
  2
VURGU
 70
     0
 62
     7
  6
Continuous
370
    -3
390
F
  0
LAYER
  5
7B
330
2
100
AcDbSymbolTableRecord
100
AcDbLayerTableRecord
  2
SILIK
 70
     0
 62
     7
  6
Continuous
370
    -3
390
F
  0
LAYER
  5
7C
330
2
100
AcDbSymbolTableRecord
100
AcDbLayerTableRecord
  2
MODEL
 70
     0
 62
     7
  6
Continuous
370
    -3
390
F
  0
LAYER
  5
7D
330
2
100
AcDbSymbolTableRecord
100
AcDbLayerTableRecord
  2
DETAYLANDıRMA
 70
     0
 62
   190
  6
Continuous
370
    -3
390
F
  0
LAYER
  5
7E
330
2
100
AcDbSymbolTableRecord
100
AcDbLayerTableRecord
  2
TOLERANS
 70
     0
 62
   230
  6
Continuous
370
    -3
390
F
  0
LAYER
  5
7F
330
2
100
AcDbSymbolTableRecord
100
AcDbLayerTableRecord
  2
MERKEZ_CIZGILERI
 70
     0
 62
    30
  6
Continuous
370
    -3
390
F
  0
LAYER
  5
80
330
2
100
AcDbSymbolTableRecord
100
AcDbLayerTableRecord
  2
KESIT-DETAY_CIZGILERI
 70
     0
 62
     7
  6
Continuous
370
    -3
390
F
  0
LAYER
  5
81
330
2
100
AcDbSymbolTableRecord
100
AcDbLayerTableRecord
  2
\U+041E\U+0421\U+0415\U+0412\U+042B\U+0415
 70
     0
 62
     7
  6
Continuous
370
    -3
390
F
  0
LAYER
  5
82
330
2
100
AcDbSymbolTableRecord
100
AcDbLayerTableRecord
  2
\U+0412\U+041E\U+0414\U+042F\U+041D\U+042B\U+0415_\U+0417\U+041D\U+0410\U+041A\U+0418
 70
     0
 62
    11
  6
Continuous
370
    -3
390
F
  0
ENDTAB
  0
TABLE
  2
STYLE
  5
3
330
0
100
AcDbSymbolTable
 70
     1
  0
STYLE
  5
11
330
3
100
AcDbSymbolTableRecord
100
AcDbTextStyleTableRecord
  2
Standard
 70
     0
 40
0.0
 41
1.0
 50
0.0
 71
     0
 42
3.5
  3
txt
  4

  0
ENDTAB
  0
TABLE
  2
VIEW
  5
6
330
0
100
AcDbSymbolTable
 70
     0
  0
ENDTAB
  0
TABLE
  2
UCS
  5
7
330
0
100
AcDbSymbolTable
 70
     0
  0
ENDTAB
  0
TABLE
  2
APPID
  5
9
330
0
100
AcDbSymbolTable
 70
     1
  0
APPID
  5
12
330
9
100
AcDbSymbolTableRecord
100
AcDbRegAppTableRecord
  2
ACAD
 70
     0
  0
ENDTAB
  0
TABLE
  2
DIMSTYLE
  5
A
330
0
100
AcDbSymbolTable
 70
     1
100
AcDbDimStyleTable
  0
DIMSTYLE
105
27
330
A
100
AcDbSymbolTableRecord
100
AcDbDimStyleTableRecord
  2
ISO-25
 70
     0
 41
2.5
 42
0.625
 43
3.75
 44
1.25
 73
     0
 74
     0
 77
     1
 78
     8
140
2.5
141
2.5
143
0.0393700787
147
0.625
171
     3
172
     1
178
     0
271
     2
272
     2
274
     3
278
    44
283
     0
284
     8
340
11
  0
ENDTAB
  0
TABLE
  2
BLOCK_RECORD
  5
1
330
0
100
AcDbSymbolTable
 70
     2
  0
BLOCK_RECORD
  5
1F
330
1
100
AcDbSymbolTableRecord
100
AcDbBlockTableRecord
  2
*Model_Space
340
22
  0
BLOCK_RECORD
  5
1B
330
1
100
AcDbSymbolTableRecord
100
AcDbBlockTableRecord
  2
*Paper_Space
340
1E
  0
BLOCK_RECORD
  5
23
330
1
100
AcDbSymbolTableRecord
100
AcDbBlockTableRecord
  2
*Paper_Space0
340
26
  0
BLOCK_RECORD
  5
88
330
1
100
AcDbSymbolTableRecord
100
AcDbBlockTableRecord
  2
SW_CENTERMARKSYMBOL_0
340
0
102
{BLKREFS
331
93
102
}
  0
ENDTAB
  0
ENDSEC
  0
SECTION
  2
BLOCKS
  0
BLOCK
  5
20
330
1F
100
AcDbEntity
  8
0
100
AcDbBlockBegin
  2
*Model_Space
 70
     0
 10
0.0
 20
0.0
 30
0.0
  3
*Model_Space
  1

  0
ENDBLK
  5
21
330
1F
100
AcDbEntity
  8
0
100
AcDbBlockEnd
  0
BLOCK
  5
1C
330
1B
100
AcDbEntity
 67
     1
  8
0
100
AcDbBlockBegin
  2
*Paper_Space
 70
     0
 10
0.0
 20
0.0
 30
0.0
  3
*Paper_Space
  1

  0
ENDBLK
  5
1D
330
1B
100
AcDbEntity
 67
     1
  8
0
100
AcDbBlockEnd
  0
BLOCK
  5
24
330
23
100
AcDbEntity
  8
0
100
AcDbBlockBegin
  2
*Paper_Space0
 70
     0
 10
0.0
 20
0.0
 30
0.0
  3
*Paper_Space0
  1

  0
ENDBLK
  5
25
330
23
100
AcDbEntity
  8
0
100
AcDbBlockEnd
  0
BLOCK
  5
89
330
88
100
AcDbEntity
  8
0
100
AcDbBlockBegin
  2
SW_CENTERMARKSYMBOL_0
 70
     0
 10
0.0
 20
0.0
 30
0.0
  3
SW_CENTERMARKSYMBOL_0
  1

  0
LINE
  5
8B
330
88
100
AcDbEntity
  8
FORMAT
 62
     0
100
AcDbLine
 10
0.0
 20
0.0
 30
0.0
 11
0.0
 21
2.5
 31
0.0
  0
LINE
  5
8C
330
88
100
AcDbEntity
  8
FORMAT
 62
     0
100
AcDbLine
 10
0.0
 20
0.0
 30
0.0
 11
-2.5
 21
0.0
 31
0.0
  0
LINE
  5
8D
330
88
100
AcDbEntity
  8
FORMAT
 62
     0
100
AcDbLine
 10
0.0
 20
0.0
 30
0.0
 11
0.0
 21
-2.5
 31
0.0
  0
LINE
  5
8E
330
88
100
AcDbEntity
  8
FORMAT
 62
     0
100
AcDbLine
 10
0.0
 20
0.0
 30
0.0
 11
2.5
 21
0.0
 31
0.0
  0
LINE
  5
8F
330
88
100
AcDbEntity
  8
FORMAT
 62
     0
100
AcDbLine
 10
0.0
 20
5.0
 30
0.0
 11
0.0
 21
142.75
 31
0.0
  0
LINE
  5
90
330
88
100
AcDbEntity
  8
FORMAT
 62
     0
100
AcDbLine
 10
-5.0
 20
0.0
 30
0.0
 11
-142.75
 21
0.0
 31
0.0
  0
LINE
  5
91
330
88
100
AcDbEntity
  8
FORMAT
 62
     0
100
AcDbLine
 10
0.0
 20
-5.0
 30
0.0
 11
0.0
 21
-142.75
 31
0.0
  0
LINE
  5
92
330
88
100
AcDbEntity
  8
FORMAT
 62
     0
100
AcDbLine
 10
5.0
 20
0.0
 30
0.0
 11
142.75
 21
0.0
 31
0.0
  0
ENDBLK
  5
8A
330
88
100
AcDbEntity
  8
0
100
AcDbBlockEnd
  0
ENDSEC
  0
SECTION
  2
ENTITIES
  0
CIRCLE
  5
83
330
1F
100
AcDbEntity
  8
0
  6
Continuous
 62
     7
370
    25
100
AcDbCircle
 10
137.9424909615
 20
108.5958316346
 30
0.0
 40
109.55
  0
CIRCLE
  5
84
330
1F
100
AcDbEntity
  8
0
  6
Continuous
 62
     7
370
    25
100
AcDbCircle
 10
137.9424909615
 20
108.5958316346
 30
0.0
 40
96.85000000000002
  0
CIRCLE
  5
85
330
1F
100
AcDbEntity
  8
0
  6
Continuous
 62
     7
370
    25
100
AcDbCircle
 10
137.9424909615
 20
108.5958316346
 30
0.0
 40
140.25
  0
CIRCLE
  5
86
330
1F
100
AcDbEntity
  8
0
  6
Continuous
 62
     7
370
    25
100
AcDbCircle
 10
137.9424909615
 20
108.5958316346
 30
0.0
 40
110.0
  0
CIRCLE
  5
87
330
1F
100
AcDbEntity
  8
0
  6
Continuous
 62
     7
370
    25
100
AcDbCircle
 10
137.9424909615
 20
108.5958316346
 30
0.0
 40
81.80000000000001
  0
INSERT
  5
93
330
1F
100
AcDbEntity
  8
FORMAT
 62
     7
100
AcDbBlockReference
  2
SW_CENTERMARKSYMBOL_0
 10
137.9424909615
 20
108.5958316346
 30
0.0
  0
LINE
  5
94
330
1F
100
AcDbEntity
  8
0
  6
Continuous
 62
     7
370
    25
100
AcDbLine
 10
-653.0635982851
 20
248.8458316346
 30
0.0
 11
-725.0635982851
 21
208.5958316346
 31
0.0
  0
LINE
  5
95
330
1F
100
AcDbEntity
  8
0
  6
Continuous
 62
     7
370
    25
100
AcDbLine
 10
-725.0635982851
 20
8.5958316346
 30
0.0
 11
-653.0635982851
 21
-31.6541683654
 31
0.0
  0
LINE
  5
96
330
1F
100
AcDbEntity
  8
0
  6
Continuous
 62
     7
370
    25
100
AcDbLine
 10
-522.0635982851
 20
248.8458316346
 30
0.0
 11
-653.0635982851
 21
248.8458316346
 31
0.0
  0
LINE
  5
97
330
1F
100
AcDbEntity
  8
0
  6
Continuous
 62
     7
370
    25
100
AcDbLine
 10
-653.0635982851
 20
-31.6541683654
 30
0.0
 11
-522.0635982851
 21
-31.6541683654
 31
0.0
  0
LINE
  5
98
330
1F
100
AcDbEntity
  8
0
  6
Continuous
 62
     7
370
    25
100
AcDbLine
 10
-242.0635982851
 20
218.1458316346
 30
0.0
 11
-522.0635982851
 21
218.1458316346
 31
0.0
  0
LINE
  5
99
330
1F
100
AcDbEntity
  8
0
  6
Continuous
 62
     7
370
    25
100
AcDbLine
 10
-522.0635982851
 20
-0.9541683654
 30
0.0
 11
-242.0635982851
 21
-0.9541683654
 31
0.0
  0
LINE
  5
9A
330
1F
100
AcDbEntity
  8
0
  6
Continuous
 62
     7
370
    25
100
AcDbLine
 10
-725.0635982851
 20
208.5958316346
 30
0.0
 11
-842.0635982851
 21
208.5958316346
 31
0.0
  0
LINE
  5
9B
330
1F
100
AcDbEntity
  8
0
  6
Continuous
 62
     7
370
    25
100
AcDbLine
 10
-842.0635982851
 20
8.5958316346
 30
0.0
 11
-725.0635982851
 21
8.5958316346
 31
0.0
  0
LINE
  5
9C
330
1F
100
AcDbEntity
  8
0
  6
Continuous
 62
     7
370
    25
100
AcDbLine
 10
-725.0635982851
 20
208.5958316346
 30
0.0
 11
-725.0635982851
 21
8.5958316346
 31
0.0
  0
LINE
  5
9D
330
1F
100
AcDbEntity
  8
0
  6
Continuous
 62
     7
370
    25
100
AcDbLine
 10
-653.0635982851
 20
248.8458316346
 30
0.0
 11
-653.0635982851
 21
-31.6541683654
 31
0.0
  0
LINE
  5
9E
330
1F
100
AcDbEntity
  8
0
  6
Continuous
 62
     7
370
    25
100
AcDbLine
 10
-522.0635982851
 20
248.8458316346
 30
0.0
 11
-522.0635982851
 21
-31.6541683654
 31
0.0
  0
LINE
  5
9F
330
1F
100
AcDbEntity
  8
0
  6
Continuous
 62
     7
370
    25
100
AcDbLine
 10
-242.0635982851
 20
218.1458316346
 30
0.0
 11
-242.0635982851
 21
-0.9541683654
 31
0.0
  0
LINE
  5
A0
330
1F
100
AcDbEntity
  8
0
  6
Continuous
 62
     7
370
    25
100
AcDbLine
 10
-842.0635982851
 20
208.5958316346
 30
0.0
 11
-842.0635982851
 21
8.5958316346
 31
0.0
  0
LINE
  5
A1
330
1F
100
AcDbEntity
  8
0
  6
Continuous
 62
     7
370
    25
100
AcDbLine
 10
939.2494898051
 20
-31.6541683654
 30
0.0
 11
1011.2494898051
 21
8.5958316346
 31
0.0
  0
LINE
  5
A2
330
1F
100
AcDbEntity
  8
0
  6
Continuous
 62
     7
370
    25
100
AcDbLine
 10
1011.2494898051
 20
208.5958316346
 30
0.0
 11
939.2494898051
 21
248.8458316346
 31
0.0
  0
LINE
  5
A3
330
1F
100
AcDbEntity
  8
0
  6
Continuous
 62
     7
370
    25
100
AcDbLine
 10
808.2494898051
 20
-31.6541683654
 30
0.0
 11
939.2494898051
 21
-31.6541683654
 31
0.0
  0
LINE
  5
A4
330
1F
100
AcDbEntity
  8
0
  6
Continuous
 62
     7
370
    25
100
AcDbLine
 10
939.2494898051
 20
248.8458316346
 30
0.0
 11
808.2494898051
 21
248.8458316346
 31
0.0
  0
LINE
  5
A5
330
1F
100
AcDbEntity
  8
0
  6
Continuous
 62
     7
370
    25
100
AcDbLine
 10
528.2494898051
 20
-0.9541683654
 30
0.0
 11
808.2494898051
 21
-0.9541683654
 31
0.0
  0
LINE
  5
A6
330
1F
100
AcDbEntity
  8
0
  6
Continuous
 62
     7
370
    25
100
AcDbLine
 10
808.2494898051
 20
218.1458316346
 30
0.0
 11
528.2494898051
 21
218.1458316346
 31
0.0
  0
LINE
  5
A7
330
1F
100
AcDbEntity
  8
0
  6
Continuous
 62
     7
370
    25
100
AcDbLine
 10
1011.2494898051
 20
8.5958316346
 30
0.0
 11
1128.2494898051
 21
8.5958316346
 31
0.0
  0
LINE
  5
A8
330
1F
100
AcDbEntity
  8
0
  6
Continuous
 62
     7
370
    25
100
AcDbLine
 10
1128.2494898051
 20
208.5958316346
 30
0.0
 11
1011.2494898051
 21
208.5958316346
 31
0.0
  0
LINE
  5
A9
330
1F
100
AcDbEntity
  8
0
  6
Continuous
 62
     7
370
    25
100
AcDbLine
 10
1011.2494898051
 20
108.5958316346
 30
0.0
 11
1011.2494898051
 21
208.5958316346
 31
0.0
  0
LINE
  5
AA
330
1F
100
AcDbEntity
  8
0
  6
Continuous
 62
     7
370
    25
100
AcDbLine
 10
1011.2494898051
 20
8.5958316346
 30
0.0
 11
1011.2494898051
 21
108.5958316346
 31
0.0
  0
LINE
  5
AB
330
1F
100
AcDbEntity
  8
0
  6
Continuous
 62
     7
370
    25
100
AcDbLine
 10
939.2494898051
 20
108.5958316346
 30
0.0
 11
939.2494898051
 21
248.8458316346
 31
0.0
  0
LINE
  5
AC
330
1F
100
AcDbEntity
  8
0
  6
Continuous
 62
     7
370
    25
100
AcDbLine
 10
939.2494898051
 20
-31.6541683654
 30
0.0
 11
939.2494898051
 21
108.5958316346
 31
0.0
  0
LINE
  5
AD
330
1F
100
AcDbEntity
  8
0
  6
Continuous
 62
     7
370
    25
100
AcDbLine
 10
808.2494898051
 20
108.5958316346
 30
0.0
 11
808.2494898051
 21
248.8458316346
 31
0.0
  0
LINE
  5
AE
330
1F
100
AcDbEntity
  8
0
  6
Continuous
 62
     7
370
    25
100
AcDbLine
 10
808.2494898051
 20
-31.6541683654
 30
0.0
 11
808.2494898051
 21
108.5958316346
 31
0.0
  0
LINE
  5
AF
330
1F
100
AcDbEntity
  8
0
  6
Continuous
 62
     7
370
    25
100
AcDbLine
 10
528.2494898051
 20
108.5958316346
 30
0.0
 11
528.2494898051
 21
218.1458316346
 31
0.0
  0
LINE
  5
B0
330
1F
100
AcDbEntity
  8
0
  6
Continuous
 62
     7
370
    25
100
AcDbLine
 10
528.2494898051
 20
-0.9541683654
 30
0.0
 11
528.2494898051
 21
108.5958316346
 31
0.0
  0
LINE
  5
B1
330
1F
100
AcDbEntity
  8
0
  6
Continuous
 62
     7
370
    25
100
AcDbLine
 10
1128.2494898051
 20
108.5958316346
 30
0.0
 11
1128.2494898051
 21
208.5958316346
 31
0.0
  0
LINE
  5
B2
330
1F
100
AcDbEntity
  8
0
  6
Continuous
 62
     7
370
    25
100
AcDbLine
 10
1128.2494898051
 20
8.5958316346
 30
0.0
 11
1128.2494898051
 21
108.5958316346
 31
0.0
  0
LINE
  5
B3
330
1F
100
AcDbEntity
  8
0
  6
Continuous
 62
     7
370
    25
100
AcDbLine
 10
-2.3075090385
 20
-683.8116246294
 30
0.0
 11
37.9424909615
 21
-755.8116246294
 31
0.0
  0
LINE
  5
B4
330
1F
100
AcDbEntity
  8
0
  6
Continuous
 62
     7
370
    25
100
AcDbLine
 10
237.9424909615
 20
-755.8116246294
 30
0.0
 11
278.1924909615
 21
-683.8116246294
 31
0.0
  0
LINE
  5
B5
330
1F
100
AcDbEntity
  8
0
  6
Continuous
 62
     7
370
    25
100
AcDbLine
 10
-2.3075090385
 20
-552.8116246294
 30
0.0
 11
-2.3075090385
 21
-683.8116246294
 31
0.0
  0
LINE
  5
B6
330
1F
100
AcDbEntity
  8
0
  6
Continuous
 62
     7
370
    25
100
AcDbLine
 10
278.1924909615
 20
-683.8116246294
 30
0.0
 11
278.1924909615
 21
-552.8116246294
 31
0.0
  0
LINE
  5
B7
330
1F
100
AcDbEntity
  8
0
  6
Continuous
 62
     7
370
    25
100
AcDbLine
 10
28.3924909615
 20
-272.8116246294
 30
0.0
 11
28.3924909615
 21
-552.8116246294
 31
0.0
  0
LINE
  5
B8
330
1F
100
AcDbEntity
  8
0
  6
Continuous
 62
     7
370
    25
100
AcDbLine
 10
247.4924909615
 20
-552.8116246294
 30
0.0
 11
247.4924909615
 21
-272.8116246294
 31
0.0
  0
LINE
  5
B9
330
1F
100
AcDbEntity
  8
0
  6
Continuous
 62
     7
370
    25
100
AcDbLine
 10
37.9424909615
 20
-755.8116246294
 30
0.0
 11
37.9424909615
 21
-872.8116246294
 31
0.0
  0
LINE
  5
BA
330
1F
100
AcDbEntity
  8
0
  6
Continuous
 62
     7
370
    25
100
AcDbLine
 10
237.9424909615
 20
-872.8116246294
 30
0.0
 11
237.9424909615
 21
-755.8116246294
 31
0.0
  0
LINE
  5
BB
330
1F
100
AcDbEntity
  8
0
  6
Continuous
 62
     7
370
    25
100
AcDbLine
 10
37.9424909615
 20
-755.8116246294
 30
0.0
 11
237.9424909615
 21
-755.8116246294
 31
0.0
  0
LINE
  5
BC
330
1F
100
AcDbEntity
  8
0
  6
Continuous
 62
     7
370
    25
100
AcDbLine
 10
-2.3075090385
 20
-683.8116246294
 30
0.0
 11
278.1924909615
 21
-683.8116246294
 31
0.0
  0
LINE
  5
BD
330
1F
100
AcDbEntity
  8
0
  6
Continuous
 62
     7
370
    25
100
AcDbLine
 10
-2.3075090385
 20
-552.8116246294
 30
0.0
 11
278.1924909615
 21
-552.8116246294
 31
0.0
  0
LINE
  5
BE
330
1F
100
AcDbEntity
  8
0
  6
Continuous
 62
     7
370
    25
100
AcDbLine
 10
28.3924909615
 20
-272.8116246294
 30
0.0
 11
247.4924909615
 21
-272.8116246294
 31
0.0
  0
LINE
  5
BF
330
1F
100
AcDbEntity
  8
0
  6
Continuous
 62
     7
370
    25
100
AcDbLine
 10
37.9424909615
 20
-872.8116246294
 30
0.0
 11
237.9424909615
 21
-872.8116246294
 31
0.0
  0
LINE
  5
C0
330
1F
100
AcDbEntity
  8
0
  6
Continuous
 62
     7
370
    25
100
AcDbLine
 10
278.1924909615
 20
819.8134002429
 30
0.0
 11
237.9424909615
 21
891.8134002429
 31
0.0
  0
LINE
  5
C1
330
1F
100
AcDbEntity
  8
0
  6
Continuous
 62
     7
370
    25
100
AcDbLine
 10
37.9424909615
 20
891.8134002429
 30
0.0
 11
-2.3075090385
 21
819.8134002429
 31
0.0
  0
LINE
  5
C2
330
1F
100
AcDbEntity
  8
0
  6
Continuous
 62
     7
370
    25
100
AcDbLine
 10
278.1924909615
 20
688.8134002429
 30
0.0
 11
278.1924909615
 21
819.8134002429
 31
0.0
  0
LINE
  5
C3
330
1F
100
AcDbEntity
  8
0
  6
Continuous
 62
     7
370
    25
100
AcDbLine
 10
-2.3075090385
 20
819.8134002429
 30
0.0
 11
-2.3075090385
 21
688.8134002429
 31
0.0
  0
LINE
  5
C4
330
1F
100
AcDbEntity
  8
0
  6
Continuous
 62
     7
370
    25
100
AcDbLine
 10
247.4924909615
 20
408.8134002429
 30
0.0
 11
247.4924909615
 21
688.8134002429
 31
0.0
  0
LINE
  5
C5
330
1F
100
AcDbEntity
  8
0
  6
Continuous
 62
     7
370
    25
100
AcDbLine
 10
28.3924909615
 20
688.8134002429
 30
0.0
 11
28.3924909615
 21
408.8134002429
 31
0.0
  0
LINE
  5
C6
330
1F
100
AcDbEntity
  8
0
  6
Continuous
 62
     7
370
    25
100
AcDbLine
 10
237.9424909615
 20
891.8134002429
 30
0.0
 11
237.9424909615
 21
1008.8134002429
 31
0.0
  0
LINE
  5
C7
330
1F
100
AcDbEntity
  8
0
  6
Continuous
 62
     7
370
    25
100
AcDbLine
 10
37.9424909615
 20
1008.8134002429
 30
0.0
 11
37.9424909615
 21
891.8134002429
 31
0.0
  0
LINE
  5
C8
330
1F
100
AcDbEntity
  8
0
  6
Continuous
 62
     7
370
    25
100
AcDbLine
 10
237.9424909615
 20
891.8134002429
 30
0.0
 11
37.9424909615
 21
891.8134002429
 31
0.0
  0
LINE
  5
C9
330
1F
100
AcDbEntity
  8
0
  6
Continuous
 62
     7
370
    25
100
AcDbLine
 10
278.1924909615
 20
819.8134002429
 30
0.0
 11
-2.3075090385
 21
819.8134002429
 31
0.0
  0
LINE
  5
CA
330
1F
100
AcDbEntity
  8
0
  6
Continuous
 62
     7
370
    25
100
AcDbLine
 10
278.1924909615
 20
688.8134002429
 30
0.0
 11
-2.3075090385
 21
688.8134002429
 31
0.0
  0
LINE
  5
CB
330
1F
100
AcDbEntity
  8
0
  6
Continuous
 62
     7
370
    25
100
AcDbLine
 10
247.4924909615
 20
408.8134002429
 30
0.0
 11
28.3924909615
 21
408.8134002429
 31
0.0
  0
LINE
  5
CC
330
1F
100
AcDbEntity
  8
0
  6
Continuous
 62
     7
370
    25
100
AcDbLine
 10
237.9424909615
 20
1008.8134002429
 30
0.0
 11
37.9424909615
 21
1008.8134002429
 31
0.0
  0
LINE
  5
CD
330
1F
100
AcDbEntity
  8
0
  6
Continuous
 62
     7
370
    25
100
AcDbLine
 10
474.5775526093
 20
-411.8171201723
 30
0.0
 11
677.5377017721
 21
-528.9835203271
 31
0.0
  0
LINE
  5
CE
330
1F
100
AcDbEntity
  8
0
  6
Continuous
 62
     7
370
    25
100
AcDbLine
 10
787.0787989324
 20
-339.2322145795
 30
0.0
 11
584.1186497695
 21
-222.0658144247
 31
0.0
  0
LINE
  5
CF
330
1F
100
AcDbEntity
  8
0
  6
Continuous
 62
     7
370
    25
100
AcDbLine
 10
657.2186987955
 20
-552.7019559026
 30
0.0
 11
749.849687131
 21
-606.176687227
 31
0.0
  0
LINE
  5
D0
330
1F
100
AcDbEntity
  8
0
  6
Continuous
 62
     7
370
    25
100
AcDbLine
 10
890.0882893832
 20
-363.2499813292
 30
0.0
 11
797.4573010477
 21
-309.7752500048
 31
0.0
  0
LINE
  5
D1
330
1F
100
AcDbEntity
  8
0
  6
Continuous
 62
     7
370
    25
100
AcDbLine
 10
783.2858769179
 20
-612.2874144943
 30
0.0
 11
844.7251603961
 21
-605.0659373313
 31
0.0
  0
LINE
  5
D2
330
1F
100
AcDbEntity
  8
0
  6
Continuous
 62
     7
370
    25
100
AcDbLine
 10
936.5718504748
 20
-445.9655647513
 30
0.0
 11
912.1008597532
 21
-389.1491419509
 31
0.0
  0
LINE
  5
D3
330
1F
100
AcDbEntity
  8
0
  6
Continuous
 62
     7
370
    25
100
AcDbLine
 10
831.1883108052
 20
-606.6570374328
 30
0.0
 11
903.6162332695
 21
-648.4687870834
 31
0.0
  0
LINE
  5
D4
330
1F
100
AcDbEntity
  8
0
  6
Continuous
 62
     7
370
    25
100
AcDbLine
 10
1003.6081065331
 20
-475.2590146072
 30
0.0
 11
931.1801840688
 21
-433.4472649567
 31
0.0
  0
LWPOLYLINE
  5
D5
330
1F
100
AcDbEntity
  8
0
  6
Continuous
 62
     7
370
    25
100
AcDbPolyline
 90
      112
 70
   128
 43
0.0
 10
606.8116490684
 20
-272.2227129734
 10
606.6875795198
 20
-267.2335829005
 10
606.3157683062
 20
-262.403682167
 10
605.6974064509
 20
-257.7484824011
 10
604.8344747535
 20
-253.282895611
 10
603.7297374443
 20
-249.0212264175
 10
602.3867333299
 20
-244.9771262319
 10
600.8097644574
 20
-241.1635495261
 10
599.0038823336
 20
-237.5927123361
 10
596.9748717433
 20
-234.27605313
 10
594.7292322191
 20
-231.224196167
 10
592.2741572214
 20
-228.4469174651
 10
589.6175110956
 20
-225.9531134852
 10
586.7678038801
 20
-223.7507726333
 10
583.7341640463
 20
-221.8469496711
 10
580.5263092572
 20
-220.2477431175
 10
577.1545152386
 20
-218.9582757132
 10
573.6295828633
 20
-217.9826780111
 10
569.9628035525
 20
-217.3240751447
 10
566.1659231057
 20
-216.9845768175
 10
562.2511040757
 20
-216.9652705451
 10
558.2308868079
 20
-217.2662181712
 10
554.1181492704
 20
-217.8864556699
 10
549.9260658013
 20
-218.8239962335
 10
545.6680649078
 20
-220.0758366369
 10
541.3577862505
 20
-221.6379668579
 10
537.0090369513
 20
-223.5053829224
 10
532.6357473652
 20
-225.6721029339
 10
528.2519264573
 20
-228.1311862349
 10
523.8716169276
 20
-230.8747556402
 10
519.5088502279
 20
-233.8940226699
 10
515.1776016154
 20
-237.1793157016
 10
510.8917453851
 20
-240.7201109511
 10
506.6650104266
 20
-244.5050661838
 10
502.5109362461
 20
-248.5220570471
 10
498.4428295957
 20
-252.7582159082
 10
494.4737218474
 20
-257.1999730732
 10
490.6163272499
 20
-261.8331002547
 10
486.883002201
 20
-266.6427561497
 10
483.2857056663
 20
-271.6135339803
 10
479.8359608712
 20
-276.7295108466
 10
476.5448183881
 20
-281.9742987323
 10
473.4228207388
 20
-287.3310970007
 10
470.4799686229
 20
-292.7827462119
 10
467.7256888828
 20
-298.31178309
 10
465.168804307
 20
-303.900496463
 10
462.8175053676
 20
-309.5309839972
 10
460.6793239839
 20
-315.1852095434
 10
458.7611093955
 20
-320.8450609127
 10
457.0690062221
 20
-326.4924078948
 10
455.6084347802
 20
-332.1091603348
 10
454.3840737205
 20
-337.6773260813
 10
453.3998450406
 20
-343.1790686208
 10
452.6589015217
 20
-348.5967642133
 10
452.1636166292
 20
-353.9130583464
 10
451.9155769099
 20
-359.1109213274
 10
451.9155769099
 20
-364.1737028342
 10
452.1636166292
 20
-369.0851852511
 10
452.6589015217
 20
-373.8296356194
 10
453.3998450406
 20
-378.3918560342
 10
454.3840737205
 20
-382.7572323281
 10
455.6084347802
 20
-386.9117808848
 10
457.0690062221
 20
-390.8421934328
 10
458.7611093955
 20
-394.5358796757
 10
460.6793239839
 20
-397.981007623
 10
462.8175053676
 20
-401.1665414912
 10
465.168804307
 20
-404.082277055
 10
467.7256888828
 20
-406.7188743343
 10
470.4799686229
 20
-409.0678875133
 10
473.4228207388
 20
-411.1217919944
 10
476.5448183881
 20
-412.8740085026
 10
479.8359608712
 20
-414.3189241599
 10
483.2857056663
 20
-415.4519104661
 10
486.883002201
 20
-416.2693381243
 10
490.6163272499
 20
-416.7685886674
 10
494.4737218474
 20
-416.9480628453
 10
498.4428295957
 20
-416.8071857482
 10
502.5109362461
 20
-416.3464086478
 10
506.6650104266
 20
-415.5672075522
 10
510.8917453851
 20
-414.4720784773
 10
515.1776016154
 20
-413.0645294518
 10
519.5088502279
 20
-411.3490692794
 10
523.8716169276
 20
-409.3311930964
 10
528.2519264573
 20
-407.0173647684
 10
532.6357473652
 20
-404.4149961851
 10
537.0090369513
 20
-401.5324235178
 10
541.3577862505
 20
-398.3788805156
 10
545.6680649078
 20
-394.9644689274
 10
549.9260658013
 20
-391.3001261431
 10
554.1181492704
 20
-387.3975901572
 10
558.2308868079
 20
-383.269361969
 10
562.2511040757
 20
-378.928665538
 10
566.1659231057
 20
-374.3894054233
 10
569.9628035525
 20
-369.6661222438
 10
573.6295828633
 20
-364.7739460993
 10
577.1545152386
 20
-359.7285481048
 10
580.5263092572
 20
-354.5460901913
 10
583.7341640463
 20
-349.2431733339
 10
586.7678038801
 20
-343.8367843738
 10
589.6175110956
 20
-338.3442416048
 10
592.2741572214
 20
-332.7831392974
 10
594.7292322191
 20
-327.1712913386
 10
596.9748717433
 20
-321.5266741694
 10
599.0038823336
 20
-315.8673692003
 10
600.8097644574
 20
-310.2115048912
 10
602.3867333299
 20
-304.5771986807
 10
603.7297374443
 20
-298.98249895
 10
604.8344747535
 20
-293.4453272091
 10
605.6974064509
 20
-287.9834206884
 10
606.3157683061
 20
-282.6142755212
 10
606.6875795198
 20
-277.355090698
 10
606.8116490684
 20
-272.2227129734
  0
LWPOLYLINE
  5
D6
330
1F
100
AcDbEntity
  8
0
  6
Continuous
 62
     7
370
    25
100
AcDbPolyline
 90
      105
 70
   128
 43
0.0
 10
597.8313929473
 20
-277.4069044835
 10
597.7064488949
 20
-272.7041821671
 10
597.3320726449
 20
-268.1628769068
 10
596.7096302557
 20
-263.7995594329
 10
595.8413929521
 20
-259.6301510178
 10
594.7305288379
 20
-255.6698653805
 10
593.3810913356
 20
-251.933153174
 10
591.7980043965
 20
-248.4336492558
 10
589.987044533
 20
-245.1841229361
 10
587.9548197414
 20
-242.1964313842
 10
585.7087453894
 20
-239.4814763626
 10
583.257017159
 20
-237.0491644475
 10
580.6085811403
 20
-234.9083708815
 10
577.7731011894
 20
-233.0669071881
 10
574.760923665
 20
-231.5314926687
 10
571.5830396762
 20
-230.3077298842
 10
568.2510449772
 20
-229.4000842125
 10
564.7770976551
 20
-228.811867554
 10
561.1738737671
 20
-228.5452262477
 10
557.4545210864
 20
-228.6011332387
 10
553.6326111275
 20
-228.9793845284
 10
549.7220896254
 20
-229.678599919
 10
545.737225649
 20
-230.6962280493
 10
541.6925595348
 20
-232.0285557046
 10
537.6028498308
 20
-233.6707213658
 10
533.4830194443
 20
-235.6167329484
 10
529.3481011894
 20
-237.8594896674
 10
525.2131829345
 20
-240.3908079465
 10
521.0933525479
 20
-243.2014512799
 10
517.0036428439
 20
-246.2811639349
 10
512.9589767297
 20
-249.6187083741
 10
508.9741127534
 20
-253.2019062596
 10
505.0635912513
 20
-257.017682891
 10
501.2416812924
 20
-261.0521149132
 10
497.5223286117
 20
-265.2904811212
 10
493.9191047237
 20
-269.7173161764
 10
490.4451574016
 20
-274.3164670378
 10
487.1131627026
 20
-279.0711519025
 10
483.9352787138
 20
-283.9640214412
 10
480.9231011894
 20
-288.9772221036
 10
478.0876212385
 20
-294.0924612641
 10
475.4391852198
 20
-299.2910739697
 10
472.9874569893
 20
-304.5540910464
 10
470.7413826374
 20
-309.8623083157
 10
468.7091578458
 20
-315.1963566684
 10
466.8981979823
 20
-320.5367727405
 10
465.3151110432
 20
-325.864069933
 10
463.9656735409
 20
-331.1588095161
 10
462.8548094266
 20
-336.4016715593
 10
461.986572123
 20
-341.5735254275
 10
461.3641297339
 20
-346.6554995869
 10
460.9897534839
 20
-351.6290504648
 10
460.8648094315
 20
-356.4760301135
 10
460.9897534839
 20
-361.1787524299
 10
461.3641297339
 20
-365.7200576902
 10
461.986572123
 20
-370.0833751641
 10
462.8548094266
 20
-374.2527835792
 10
463.9656735409
 20
-378.2130692165
 10
465.3151110432
 20
-381.949781423
 10
466.8981979823
 20
-385.4492853412
 10
468.7091578458
 20
-388.6988116609
 10
470.7413826374
 20
-391.6865032128
 10
472.9874569893
 20
-394.4014582344
 10
475.4391852198
 20
-396.8337701495
 10
478.0876212385
 20
-398.9745637155
 10
480.9231011894
 20
-400.8160274089
 10
483.9352787138
 20
-402.3514419283
 10
487.1131627026
 20
-403.5752047128
 10
490.4451574016
 20
-404.4828503845
 10
493.9191047237
 20
-405.071067043
 10
497.5223286117
 20
-405.3377083493
 10
501.2416812924
 20
-405.2818013583
 10
505.0635912513
 20
-404.9035500686
 10
508.9741127534
 20
-404.204334678
 10
512.9589767297
 20
-403.1867065477
 10
517.0036428439
 20
-401.8543788924
 10
521.0933525479
 20
-400.2122132312
 10
525.2131829345
 20
-398.2662016486
 10
529.3481011894
 20
-396.0234449296
 10
533.4830194443
 20
-393.4921266505
 10
537.6028498308
 20
-390.6814833171
 10
541.6925595348
 20
-387.6017706621
 10
545.737225649
 20
-384.2642262229
 10
549.7220896254
 20
-380.6810283374
 10
553.6326111275
 20
-376.865251706
 10
557.4545210864
 20
-372.8308196838
 10
561.1738737671
 20
-368.5924534758
 10
564.7770976551
 20
-364.1656184206
 10
568.2510449772
 20
-359.5664675592
 10
571.5830396762
 20
-354.8117826945
 10
574.760923665
 20
-349.9189131558
 10
577.7731011894
 20
-344.9057124934
 10
580.6085811403
 20
-339.7904733329
 10
583.257017159
 20
-334.5918606273
 10
585.7087453894
 20
-329.3288435506
 10
587.9548197414
 20
-324.0206262813
 10
589.987044533
 20
-318.6865779286
 10
591.7980043965
 20
-313.3461618565
 10
593.3810913356
 20
-308.018864664
 10
594.7305288379
 20
-302.7241250809
 10
595.8413929521
 20
-297.4812630377
 10
596.7096302557
 20
-292.3094091695
 10
597.3320726449
 20
-287.2274350101
 10
597.7064488949
 20
-282.2538841322
 10
597.8313929473
 20
-277.4069044835
  0
LWPOLYLINE
  5
D7
330
1F
100
AcDbEntity
  8
0
  6
Continuous
 62
     7
370
    25
100
AcDbPolyline
 90
       17
 70
   128
 43
0.0
 10
919.1407143185
 20
-427.4627154365
 10
919.015456125
 20
-421.7810537281
 10
918.6399979577
 20
-416.258364422
 10
918.0152882563
 20
-410.908598311
 10
917.142905092
 20
-405.7452693683
 10
916.0250521802
 20
-400.7814206111
 10
914.6645533144
 20
-396.029591152
 10
913.0648452329
 20
-391.5017845248
 10
911.229968937
 20
-387.2094383619
 10
909.1645594836
 20
-383.1633955023
 10
906.8738342762
 20
-379.3738766013
 10
904.3635798854
 20
-375.8504543126
 10
901.6401374317
 20
-372.6020291067
 10
898.7103865672
 20
-369.6368067876
 10
895.5817280967
 20
-366.9622777641
 10
892.2620652831
 20
-364.5851981288
 10
890.0882893832
 20
-363.2499813292
  0
LWPOLYLINE
  5
D8
330
1F
100
AcDbEntity
  8
0
  6
Continuous
 62
     7
370
    25
100
AcDbPolyline
 90
       48
 70
   128
 43
0.0
 10
749.849687131
 20
-606.176687227
 10
752.9950680098
 20
-607.8364462043
 10
756.7545509607
 20
-609.4453122683
 10
760.6737190665
 20
-610.7390945307
 10
764.7426721684
 20
-611.7145247852
 10
768.9511317377
 20
-612.3691390103
 10
773.2884668403
 20
-612.7012835937
 10
777.7437209913
 20
-612.7101195093
 10
782.3056398321
 20
-612.3956244367
 10
786.9626995597
 20
-611.758592818
 10
791.7031360372
 20
-610.8006338502
 10
796.5149745104
 20
-609.5241674208
 10
801.3860598579
 20
-607.9324179949
 10
806.3040872954
 20
-606.0294064695
 10
811.2566334586
 20
-603.819940017
 10
816.2311877861
 20
-601.3095999413
 10
821.2151841221
 20
-598.5047275795
 10
826.1960324591
 20
-595.4124082824
 10
831.161150742
 20
-592.0404535171
 10
836.0979966512
 20
-588.3973811339
 10
840.9940992853
 20
-584.4923938498
 10
845.8370906643
 20
-580.3353560015
 10
850.6147369715
 20
-575.9367686276
 10
855.3149694578
 20
-571.3077429414
 10
859.925914928
 20
-566.4599722636
 10
864.4359257337
 20
-561.4057024836
 10
868.8336091961
 20
-556.1577011255
 10
873.1078563851
 20
-550.7292250963
 10
877.2478701814
 20
-545.1339871975
 10
881.2431925509
 20
-539.3861214856
 10
885.0837309624
 20
-533.5001475683
 10
888.7597838827
 20
-527.4909339265
 10
892.2620652831
 20
-521.3736603554
 10
895.5817280967
 20
-515.1637796189
 10
898.7103865672
 20
-508.8769784149
 10
901.6401374317
 20
-502.5291377486
 10
904.3635798854
 20
-496.1362928165
 10
906.8738342762
 20
-489.7145924998
 10
909.1645594836
 20
-483.2802585708
 10
911.229968937
 20
-476.8495447154
 10
913.0648452329
 20
-470.4386954749
 10
914.6645533144
 20
-464.0639052109
 10
916.0250521802
 20
-457.7412771968
 10
917.142905092
 20
-451.4867829398
 10
918.0152882563
 20
-445.3162218351
 10
918.6399979577
 20
-439.2451812556
 10
919.015456125
 20
-433.2889971768
 10
919.1407143185
 20
-427.4627154365
  0
LWPOLYLINE
  5
D9
330
1F
100
AcDbEntity
  8
0
  6
Continuous
 62
     7
370
    25
100
AcDbPolyline
 90
       31
 70
   128
 43
0.0
 10
826.509725983
 20
-373.9879841121
 10
826.3844677896
 20
-368.3063224037
 10
826.0090096222
 20
-362.7836330977
 10
825.3842999209
 20
-357.4338669866
 10
824.5119167566
 20
-352.2705380439
 10
823.3940638448
 20
-347.3066892867
 10
822.033564979
 20
-342.5548598277
 10
820.4338568974
 20
-338.0270532004
 10
818.5989806016
 20
-333.7347070376
 10
816.5335711482
 20
-329.6886641779
 10
814.2428459407
 20
-325.8991452769
 10
811.7325915499
 20
-322.3757229882
 10
809.0091490963
 20
-319.1272977823
 10
806.0793982317
 20
-316.1620754632
 10
802.9507397612
 20
-313.4875464397
 10
799.6310769476
 20
-311.1104668044
 10
796.1287955473
 20
-309.0368412667
 10
792.452742627
 20
-307.2719079847
 10
788.6122042154
 20
-305.8201253329
 10
784.616881846
 20
-304.6851606404
 10
780.4768680496
 20
-303.8698809266
 10
776.2026208606
 20
-303.3763456586
 10
771.8049373982
 20
-303.2058015495
 10
767.2949265926
 20
-303.3586794084
 10
762.6839811224
 20
-303.8345930527
 10
757.9837486361
 20
-304.6323402831
 10
753.2061023289
 20
-305.7499059209
 10
748.3631109499
 20
-307.1844668983
 10
743.4670083157
 20
-308.9323993898
 10
738.5301624066
 20
-310.9892879662
 10
738.3189766683
 20
-311.0837683429
  0
LWPOLYLINE
  5
DA
330
1F
100
AcDbEntity
  8
0
  6
Continuous
 62
     7
370
    25
100
AcDbPolyline
 90
       62
 70
   128
 43
0.0
 10
628.777879508
 20
-500.8350740905
 10
628.9482725414
 20
-502.3909265315
 10
629.6970554479
 20
-507.6491346569
 10
630.6924878541
 20
-512.7143231477
 10
631.9320552116
 20
-517.5736968981
 10
633.4126262655
 20
-522.2149807084
 10
635.1304609648
 20
-526.6264502928
 10
637.08121991
 20
-530.7969618963
 10
639.2599753147
 20
-534.7159804447
 10
641.6612234537
 20
-538.3736061569
 10
644.2788985658
 20
-541.760599553
 10
647.1063881764
 20
-544.8684047938
 10
650.1365498015
 20
-547.6891712933
 10
653.3617289897
 20
-550.2157735508
 10
656.7737786585
 20
-552.4418291495
 10
660.3640796744
 20
-554.3617148799
 10
664.1235626253
 20
-555.9705809439
 10
668.0427307311
 20
-557.2643632063
 10
672.111683833
 20
-558.2397934608
 10
676.3201434023
 20
-558.8944076859
 10
680.6574785049
 20
-559.2265522693
 10
685.1127326559
 20
-559.2353881849
 10
689.6746514967
 20
-558.9208931124
 10
694.3317112243
 20
-558.2838614936
 10
699.0721477017
 20
-557.3259025258
 10
703.883986175
 20
-556.0494360964
 10
708.7550715225
 20
-554.4576866705
 10
713.6730989599
 20
-552.5546751451
 10
718.6256451231
 20
-550.3452086926
 10
723.6001994507
 20
-547.8348686169
 10
728.5841957866
 20
-545.0299962551
 10
733.5650441236
 20
-541.9376769581
 10
738.5301624066
 20
-538.5657221927
 10
743.4670083157
 20
-534.9226498095
 10
748.3631109499
 20
-531.0176625254
 10
753.2061023289
 20
-526.8606246772
 10
757.9837486361
 20
-522.4620373032
 10
762.6839811224
 20
-517.833011617
 10
767.2949265926
 20
-512.9852409392
 10
771.8049373982
 20
-507.9309711592
 10
776.2026208606
 20
-502.6829698011
 10
780.4768680496
 20
-497.2544937719
 10
784.616881846
 20
-491.6592558731
 10
788.6122042154
 20
-485.9113901612
 10
792.452742627
 20
-480.0254162439
 10
796.1287955473
 20
-474.0162026021
 10
799.6310769476
 20
-467.898929031
 10
802.9507397612
 20
-461.6890482946
 10
806.0793982317
 20
-455.4022470905
 10
809.0091490963
 20
-449.0544064242
 10
811.7325915499
 20
-442.6615614921
 10
814.2428459407
 20
-436.2398611754
 10
816.5335711482
 20
-429.8055272464
 10
818.5989806016
 20
-423.374813391
 10
820.4338568974
 20
-416.9639641505
 10
822.033564979
 20
-410.5891738865
 10
823.3940638448
 20
-404.2665458724
 10
824.5119167566
 20
-398.0120516154
 10
825.3842999209
 20
-391.8414905107
 10
826.0090096222
 20
-385.7704499312
 10
826.3844677896
 20
-379.8142658524
 10
826.509725983
 20
-373.9879841121
  0
LWPOLYLINE
  5
DB
330
1F
100
AcDbEntity
  8
0
  6
Continuous
 62
     7
370
    25
100
AcDbPolyline
 90
       17
 70
   128
 43
0.0
 10
805.1197458521
 20
-386.3361568034
 10
804.9951666614
 20
-381.3265328142
 10
804.6218281539
 20
-376.4767922329
 10
804.0009262454
 20
-371.8024702406
 10
803.1344498719
 20
-367.3185401
 10
802.0251746184
 20
-363.0393651909
 10
800.6766538281
 20
-358.9786530009
 10
799.0932072195
 20
-355.1494112151
 10
797.2799070495
 20
-351.5639060494
 10
795.2425618653
 20
-348.2336229579
 10
792.9876978976
 20
-345.1692298412
 10
790.5225381555
 20
-342.3805428745
 10
787.8549792889
 20
-339.8764950626
 10
784.993566293
 20
-337.6651076258
 10
781.9474651363
 20
-335.7534643045
 10
778.7264333991
 20
-334.1476886688
 10
777.1382980711
 20
-333.4936855803
  0
LWPOLYLINE
  5
DC
330
1F
100
AcDbEntity
  8
0
  6
Continuous
 62
     7
370
    25
100
AcDbPolyline
 90
       45
 70
   128
 43
0.0
 10
667.5972009109
 20
-523.2449913279
 10
668.2280539397
 20
-523.7434520968
 10
671.1829944487
 20
-525.8057934288
 10
674.3178163695
 20
-527.5652075402
 10
677.6224779225
 20
-529.0160584969
 10
681.0863932805
 20
-530.153698786
 10
684.6984664782
 20
-530.9744842028
 10
688.4471269564
 20
-531.475785524
 10
692.3203666252
 20
-531.6559969304
 10
696.3057783305
 20
-531.5145411505
 10
700.390595597
 20
-531.0518713099
 10
704.5617335235
 20
-530.2694694795
 10
708.8058306978
 20
-529.1698419283
 10
713.1092919971
 20
-527.7565110948
 10
717.4583321374
 20
-526.0340043038
 10
721.8390198322
 20
-524.0078392637
 10
726.237322418
 20
-521.6845063922
 10
730.6391508056
 20
-519.0714480247
 10
735.0304046118
 20
-516.177034575
 10
739.3970173266
 20
-513.0105377221
 10
743.7250013733
 20
-509.5821007098
 10
748.000492914
 20
-505.9027058556
 10
752.2097962604
 20
-501.9841393705
 10
756.3394277449
 20
-497.8389536041
 10
760.3761589129
 20
-493.4804268363
 10
764.3070588974
 20
-488.9225207422
 10
768.1195358408
 20
-484.1798356692
 10
771.80137723
 20
-479.2675638673
 10
775.3407890171
 20
-474.201440824
 10
778.7264333991
 20
-468.9976948589
 10
781.9474651363
 20
-463.6729951389
 10
784.993566293
 20
-458.2443982826
 10
787.8549792889
 20
-452.7292937222
 10
790.5225381555
 20
-447.1453480005
 10
792.9876978976
 20
-441.5104481788
 10
795.2425618653
 20
-435.8426445402
 10
797.2799070495
 20
-430.1600927684
 10
799.0932072195
 20
-424.4809957898
 10
800.6766538281
 20
-418.8235454643
 10
802.0251746184
 20
-413.2058643107
 10
803.1344498719
 20
-407.6459474554
 10
804.0009262454
 20
-402.1616049883
 10
804.6218281539
 20
-396.7704049117
 10
804.9951666614
 20
-391.4896168647
 10
805.1197458521
 20
-386.3361568034
  0
ARC
  5
DD
330
1F
100
AcDbEntity
  8
0
  6
Continuous
 62
     7
370
    25
100
AcDbCircle
 10
874.0977606999
 20
-471.5649249454
 30
0.0
 40
67.51547330457439
100
AcDbArc
 50
358.5413024955
 51
22.2818381414
  0
LWPOLYLINE
  5
DE
330
1F
100
AcDbEntity
  8
0
  6
Continuous
 62
     7
370
    25
100
AcDbPolyline
 90
       34
 70
   128
 43
0.0
 10
844.7251603961
 20
-605.0659373313
 10
848.2341779549
 20
-604.5306346467
 10
852.2422492464
 20
-603.6301934538
 10
856.3157886934
 20
-602.4152883336
 10
860.44048784
 20
-600.8901866848
 10
864.6018585301
 20
-599.0602454824
 10
868.7852837972
 20
-596.9318924616
 10
872.9760692077
 20
-594.5126035402
 10
877.1594944749
 20
-591.8108765585
 10
881.320865165
 20
-588.8362014313
 10
885.4455643116
 20
-585.5990268134
 10
889.5191037586
 20
-582.1107233987
 10
893.5271750501
 20
-578.3835439801
 10
897.4556996895
 20
-574.4305804113
 10
901.2908785907
 20
-570.265717621
 10
905.019240548
 20
-565.9035848417
 10
908.627689554
 20
-561.3595042238
 10
912.1035507999
 20
-556.6494370162
 10
915.4346151965
 20
-551.7899275019
 10
918.6091822584
 20
-546.7980448851
 10
921.6161012032
 20
-541.6913233356
 10
924.4448101182
 20
-536.4877003992
 10
927.0853730605
 20
-531.2054539912
 10
929.5285149561
 20
-525.8631381947
 10
931.7656541803
 20
-520.4795180888
 10
933.7889326998
 20
-515.0735038355
 10
935.5912436751
 20
-509.664084257
 10
937.166256423
 20
-504.2702601368
 10
938.508438654
 20
-498.910977479
 10
939.613075904
 20
-493.6050609593
 10
940.4762880943
 20
-488.371147803
 10
941.0950431606
 20
-483.2276223209
 10
941.4671677032
 20
-478.192551334
 10
941.5913546211
 20
-473.2836207125
  0
LWPOLYLINE
  5
DF
330
1F
100
AcDbEntity
  8
0
  6
Continuous
 62
     7
370
    25
100
AcDbPolyline
 90
       15
 70
   128
 43
0.0
 10
1024.32284802
 20
-521.0434952542
 10
1024.1986611021
 20
-516.2779477962
 10
1023.8265365594
 20
-511.6725226609
 10
1023.2077814931
 20
-507.243396572
 10
1022.3445693028
 20
-503.0061269964
 10
1021.2399320529
 20
-498.9755974981
 10
1019.8977498219
 20
-495.165965459
 10
1018.3227370739
 20
-491.5906123504
 10
1016.5204260986
 20
-488.2620967307
 10
1014.4971475791
 20
-485.1921101322
 10
1012.260008355
 20
-482.391435995
 10
1009.8168664593
 20
-479.869911789
 10
1007.1763035171
 20
-477.63639446
 10
1004.347594602
 20
-475.6987293191
 10
1003.6081065331
 20
-475.2590146072
  0
LWPOLYLINE
  5
E0
330
1F
100
AcDbEntity
  8
0
  6
Continuous
 62
     7
370
    25
100
AcDbPolyline
 90
       41
 70
   128
 43
0.0
 10
903.6162332695
 20
-648.4687870834
 10
905.8836641454
 20
-649.6640792049
 10
909.0582312073
 20
-650.9906847096
 10
912.3892956039
 20
-652.0042291354
 10
915.8651568498
 20
-652.7011523705
 10
919.4736058558
 20
-653.0790064467
 10
923.2019678131
 20
-653.1364641378
 10
927.0371467143
 20
-652.8733236214
 10
930.9656713537
 20
-652.2905091883
 10
934.9737426452
 20
-651.3900679954
 10
939.0472820922
 20
-650.1751628753
 10
943.1719812388
 20
-648.6500612264
 10
947.3333519289
 20
-646.820120024
 10
951.5167771961
 20
-644.6917670033
 10
955.7075626066
 20
-642.2724780818
 10
959.8909878738
 20
-639.5707511002
 10
964.0523585638
 20
-636.596075973
 10
968.1770577104
 20
-633.358901355
 10
972.2505971574
 20
-629.8705979403
 10
976.2586684489
 20
-626.1434185217
 10
980.1871930883
 20
-622.1904549529
 10
984.0223719895
 20
-618.0255921626
 10
987.7507339468
 20
-613.6634593833
 10
991.3591829528
 20
-609.1193787654
 10
994.8350441988
 20
-604.4093115579
 10
998.1661085953
 20
-599.5498020435
 10
1001.3406756572
 20
-594.5579194267
 10
1004.347594602
 20
-589.4511978773
 10
1007.1763035171
 20
-584.2475749409
 10
1009.8168664593
 20
-578.9653285328
 10
1012.260008355
 20
-573.6230127363
 10
1014.4971475791
 20
-568.2393926304
 10
1016.5204260986
 20
-562.8333783771
 10
1018.3227370739
 20
-557.4239587986
 10
1019.8977498219
 20
-552.0301346785
 10
1021.2399320529
 20
-546.6708520206
 10
1022.3445693028
 20
-541.3649355009
 10
1023.2077814931
 20
-536.1310223446
 10
1023.8265365594
 20
-530.9874968626
 10
1024.1986611021
 20
-525.9524258756
 10
1024.32284802
 20
-521.0434952542
  0
ENDSEC
  0
SECTION
  2
OBJECTS
  0
DICTIONARY
  5
C
330
0
100
AcDbDictionary
281
     1
  3
ACAD_GROUP
350
D
  3
ACAD_LAYOUT
350
1A
  3
ACAD_MLINESTYLE
350
17
  3
ACAD_PLOTSETTINGS
350
19
  3
ACAD_PLOTSTYLENAME
350
E
  3
ACAD_SCALELIST
350
47
  3
DWGPROPS
350
E1
  0
DICTIONARY
  5
D
102
{ACAD_REACTORS
330
C
102
}
330
C
100
AcDbDictionary
281
     1
  0
DICTIONARY
  5
1A
102
{ACAD_REACTORS
330
C
102
}
330
C
100
AcDbDictionary
281
     1
  3
Layout1
350
1E
  3
Layout2
350
26
  3
Model
350
22
  0
DICTIONARY
  5
17
102
{ACAD_REACTORS
330
C
102
}
330
C
100
AcDbDictionary
281
     1
  3
Standard
350
18
  0
DICTIONARY
  5
19
102
{ACAD_REACTORS
330
C
102
}
330
C
100
AcDbDictionary
281
     1
  0
ACDBDICTIONARYWDFLT
  5
E
102
{ACAD_REACTORS
330
C
102
}
330
C
100
AcDbDictionary
281
     1
  3
Normal
350
F
100
AcDbDictionaryWithDefault
340
F
  0
DICTIONARY
  5
47
102
{ACAD_REACTORS
330
C
102
}
330
C
100
AcDbDictionary
281
     1
  3
A0
350
48
  3
A1
350
49
  3
A2
350
4A
  3
A3
350
4B
  3
A4
350
4C
  3
A5
350
4D
  3
A6
350
4E
  3
A7
350
4F
  3
A8
350
50
  3
A9
350
51
  3
B0
350
52
  3
B1
350
53
  3
B2
350
54
  3
B3
350
55
  3
B4
350
56
  3
B5
350
57
  3
B6
350
58
  3
B7
350
59
  3
B8
350
5A
  3
B9
350
5B
  3
C0
350
5C
  3
C1
350
5D
  3
C2
350
5E
  3
C3
350
5F
  3
C4
350
60
  3
C5
350
61
  3
C6
350
62
  3
C7
350
63
  3
C8
350
64
  3
C9
350
65
  3
D0
350
66
  3
D1
350
67
  3
D2
350
68
  0
XRECORD
  5
E1
102
{ACAD_REACTORS
330
C
102
}
330
C
100
AcDbXrecord
280
     1
  1
DWGPROPS COOKIE
  2

  3

  4

  6

  7

  8
b.kav
  9

300
=
301
=
302
=
303
=
304
=
305
=
306
=
307
=
308
=
309
=
 40
0.0
 41
2459935.584722349
 42
2459935.584722592
  1

 90
        0
  0
LAYOUT
  5
1E
102
{ACAD_REACTORS
330
1A
102
}
330
1A
100
AcDbPlotSettings
  1

  2
none_device
  4

  6

 40
0.0
 41
0.0
 42
0.0
 43
0.0
 44
0.0
 45
0.0
 46
0.0
 47
0.0
 48
0.0
 49
0.0
140
0.0
141
0.0
142
1.0
143
1.0
 70
   688
 72
     1
 73
     0
 74
     5
  7

 75
    16
147
1.0
148
0.0
149
0.0
100
AcDbLayout
  1
Layout1
 70
     1
 71
     1
 10
0.0
 20
0.0
 11
420.0
 21
297.0
 12
0.0
 22
0.0
 32
0.0
 14
1.0000000000E+20
 24
1.0000000000E+20
 34
1.0000000000E+20
 15
-1.0000000000E+20
 25
-1.0000000000E+20
 35
-1.0000000000E+20
146
0.0
 13
0.0
 23
0.0
 33
0.0
 16
1.0
 26
0.0
 36
0.0
 17
0.0
 27
1.0
 37
0.0
 76
     0
330
1B
  0
LAYOUT
  5
26
102
{ACAD_REACTORS
330
1A
102
}
330
1A
100
AcDbPlotSettings
  1

  2
none_device
  4

  6

 40
0.0
 41
0.0
 42
0.0
 43
0.0
 44
0.0
 45
0.0
 46
0.0
 47
0.0
 48
0.0
 49
0.0
140
0.0
141
0.0
142
1.0
143
1.0
 70
   688
 72
     1
 73
     0
 74
     5
  7

 75
    16
147
1.0
148
0.0
149
0.0
100
AcDbLayout
  1
Layout2
 70
     1
 71
     2
 10
0.0
 20
0.0
 11
0.0
 21
0.0
 12
0.0
 22
0.0
 32
0.0
 14
0.0
 24
0.0
 34
0.0
 15
0.0
 25
0.0
 35
0.0
146
0.0
 13
0.0
 23
0.0
 33
0.0
 16
1.0
 26
0.0
 36
0.0
 17
0.0
 27
1.0
 37
0.0
 76
     0
330
23
  0
LAYOUT
  5
22
102
{ACAD_REACTORS
330
1A
102
}
330
1A
100
AcDbPlotSettings
  1

  2
none_device
  4
Letter_(8.50_x_11.00_Inches)
  6

 40
6.35
 41
6.35
 42
6.35000508
 43
6.35000508
 44
215.9
 45
279.4
 46
0.0
 47
0.0
 48
0.0
 49
0.0
140
0.0
141
0.0
142
1.0
143
1.0
 70
  1712
 72
     1
 73
     0
 74
     0
  7

 75
     0
147
1.0
148
0.0
149
0.0
100
AcDbLayout
  1
Model
 70
     1
 71
     0
 10
0.0
 20
0.0
 11
279.4
 21
215.9
 12
0.0
 22
0.0
 32
0.0
 14
0.0
 24
0.0
 34
0.0
 15
279.4
 25
215.9
 35
0.0
146
0.0
 13
0.0
 23
0.0
 33
0.0
 16
1.0
 26
0.0
 36
0.0
 17
0.0
 27
1.0
 37
0.0
 76
     0
330
1F
331
29
  0
MLINESTYLE
  5
18
102
{ACAD_REACTORS
330
17
102
}
330
17
100
AcDbMlineStyle
  2
Standard
 70
     0
  3

 62
   256
 51
90.0
 52
90.0
 71
     2
 49
0.5
 62
   256
  6
BYLAYER
 49
-0.5
 62
   256
  6
BYLAYER
  0
ACDBPLACEHOLDER
  5
F
102
{ACAD_REACTORS
330
E
102
}
330
E
  0
SCALE
  5
48
102
{ACAD_REACTORS
330
47
102
}
330
47
100
AcDbScale
 70
     0
300
1:1
140
1.0
141
1.0
290
     1
  0
SCALE
  5
49
102
{ACAD_REACTORS
330
47
102
}
330
47
100
AcDbScale
 70
     0
300
1:2
140
1.0
141
2.0
290
     0
  0
SCALE
  5
4A
102
{ACAD_REACTORS
330
47
102
}
330
47
100
AcDbScale
 70
     0
300
1:4
140
1.0
141
4.0
290
     0
  0
SCALE
  5
4B
102
{ACAD_REACTORS
330
47
102
}
330
47
100
AcDbScale
 70
     0
300
1:5
140
1.0
141
5.0
290
     0
  0
SCALE
  5
4C
102
{ACAD_REACTORS
330
47
102
}
330
47
100
AcDbScale
 70
     0
300
1:8
140
1.0
141
8.0
290
     0
  0
SCALE
  5
4D
102
{ACAD_REACTORS
330
47
102
}
330
47
100
AcDbScale
 70
     0
300
1:10
140
1.0
141
10.0
290
     0
  0
SCALE
  5
4E
102
{ACAD_REACTORS
330
47
102
}
330
47
100
AcDbScale
 70
     0
300
1:16
140
1.0
141
16.0
290
     0
  0
SCALE
  5
4F
102
{ACAD_REACTORS
330
47
102
}
330
47
100
AcDbScale
 70
     0
300
1:20
140
1.0
141
20.0
290
     0
  0
SCALE
  5
50
102
{ACAD_REACTORS
330
47
102
}
330
47
100
AcDbScale
 70
     0
300
1:30
140
1.0
141
30.0
290
     0
  0
SCALE
  5
51
102
{ACAD_REACTORS
330
47
102
}
330
47
100
AcDbScale
 70
     0
300
1:40
140
1.0
141
40.0
290
     0
  0
SCALE
  5
52
102
{ACAD_REACTORS
330
47
102
}
330
47
100
AcDbScale
 70
     0
300
1:50
140
1.0
141
50.0
290
     0
  0
SCALE
  5
53
102
{ACAD_REACTORS
330
47
102
}
330
47
100
AcDbScale
 70
     0
300
1:100
140
1.0
141
100.0
290
     0
  0
SCALE
  5
54
102
{ACAD_REACTORS
330
47
102
}
330
47
100
AcDbScale
 70
     0
300
2:1
140
2.0
141
1.0
290
     0
  0
SCALE
  5
55
102
{ACAD_REACTORS
330
47
102
}
330
47
100
AcDbScale
 70
     0
300
4:1
140
4.0
141
1.0
290
     0
  0
SCALE
  5
56
102
{ACAD_REACTORS
330
47
102
}
330
47
100
AcDbScale
 70
     0
300
8:1
140
8.0
141
1.0
290
     0
  0
SCALE
  5
57
102
{ACAD_REACTORS
330
47
102
}
330
47
100
AcDbScale
 70
     0
300
10:1
140
10.0
141
1.0
290
     0
  0
SCALE
  5
58
102
{ACAD_REACTORS
330
47
102
}
330
47
100
AcDbScale
 70
     0
300
100:1
140
100.0
141
1.0
290
     0
  0
SCALE
  5
59
102
{ACAD_REACTORS
330
47
102
}
330
47
100
AcDbScale
 70
     0
300
1/128" = 1'-0"
140
0.0078125
141
12.0
290
     0
  0
SCALE
  5
5A
102
{ACAD_REACTORS
330
47
102
}
330
47
100
AcDbScale
 70
     0
300
1/64" = 1'-0"
140
0.015625
141
12.0
290
     0
  0
SCALE
  5
5B
102
{ACAD_REACTORS
330
47
102
}
330
47
100
AcDbScale
 70
     0
300
1/32" = 1'-0"
140
0.03125
141
12.0
290
     0
  0
SCALE
  5
5C
102
{ACAD_REACTORS
330
47
102
}
330
47
100
AcDbScale
 70
     0
300
1/16" = 1'-0"
140
0.0625
141
12.0
290
     0
  0
SCALE
  5
5D
102
{ACAD_REACTORS
330
47
102
}
330
47
100
AcDbScale
 70
     0
300
3/32" = 1'-0"
140
0.09375
141
12.0
290
     0
  0
SCALE
  5
5E
102
{ACAD_REACTORS
330
47
102
}
330
47
100
AcDbScale
 70
     0
300
1/8" = 1'-0"
140
0.125
141
12.0
290
     0
  0
SCALE
  5
5F
102
{ACAD_REACTORS
330
47
102
}
330
47
100
AcDbScale
 70
     0
300
3/16" = 1'-0"
140
0.1875
141
12.0
290
     0
  0
SCALE
  5
60
102
{ACAD_REACTORS
330
47
102
}
330
47
100
AcDbScale
 70
     0
300
1/4" = 1'-0"
140
0.25
141
12.0
290
     0
  0
SCALE
  5
61
102
{ACAD_REACTORS
330
47
102
}
330
47
100
AcDbScale
 70
     0
300
3/8" = 1'-0"
140
0.375
141
12.0
290
     0
  0
SCALE
  5
62
102
{ACAD_REACTORS
330
47
102
}
330
47
100
AcDbScale
 70
     0
300
1/2" = 1'-0"
140
0.5
141
12.0
290
     0
  0
SCALE
  5
63
102
{ACAD_REACTORS
330
47
102
}
330
47
100
AcDbScale
 70
     0
300
3/4" = 1'-0"
140
0.75
141
12.0
290
     0
  0
SCALE
  5
64
102
{ACAD_REACTORS
330
47
102
}
330
47
100
AcDbScale
 70
     0
300
1" = 1'-0"
140
1.0
141
12.0
290
     0
  0
SCALE
  5
65
102
{ACAD_REACTORS
330
47
102
}
330
47
100
AcDbScale
 70
     0
300
1-1/2" = 1'-0"
140
1.5
141
12.0
290
     0
  0
SCALE
  5
66
102
{ACAD_REACTORS
330
47
102
}
330
47
100
AcDbScale
 70
     0
300
3" = 1'-0"
140
3.0
141
12.0
290
     0
  0
SCALE
  5
67
102
{ACAD_REACTORS
330
47
102
}
330
47
100
AcDbScale
 70
     0
300
6" = 1'-0"
140
6.0
141
12.0
290
     0
  0
SCALE
  5
68
102
{ACAD_REACTORS
330
47
102
}
330
47
100
AcDbScale
 70
     0
300
1'-0" = 1'-0"
140
12.0
141
12.0
290
     0
  0
ENDSEC
  0
EOF
